In A Darkned Room Bass Tab - Skid Row






Artista: Skid Row
Titolo: In a darkned room
By Metalbass

Parte 1
G|-----------|
D|-----------|
A|---3-5-3---|
E|-0---------|

Pre-coro
G|-------------------------------|
D|-------------------------------|
A|-5-0----5-3-35-0-----5--5-5--|
E|------0------------0-----------|

Coro
G|--------------------|
D|-------5------------|
A|-3-------5-3-----5--|
E|----0---------0-----|

Parte 1         x3
Pre-coro
Coro
Parte 1         x3
Pre-coro
Coro
Parte 1         x3

ĂŽnscrie-te la newsletter


Like us on Facebook