Riot Act Bass Tab - Skid Row




Artist:Skid Row
Song:Riot Act
Album:Slave to the Grind
Bassist:Rachel Bolan
Tabber:Dev Fuld

This is an awesome song off of Skid Row's best album...Slave to the Grind. And remember, 
"you can't be king of the world, if you're a slave to the grind!"

Key:
x = times a number

Intro
G:---|--------|--------|--------|--------|
D:---|--------|--------|--------|--------|
A:--5|7x12---5|7x12---5|7x12---5|7x12---5|
E:5--|-----5--|-----5--|-----5--|-----5--|

Verse
G:--------|--------|--------|--------|
D:--------|--------|--------|--------|
A:7x12---5|7x12---5|7x12---5|7x12---5|
E:-----5--|-----5--|-----5--|-----5--|

Pre-Chorus
G:------------|
D:------------|
A:2x16--------|
E:-----3x8-5x8|

Chorus
G:-----------|-----------|-----------|---|---|
D:-----------|-----------|-----------|---|---|
A:-----------|-----------|-----------|2x8|2-2|
E:0x4-3x4-5x8|0x4-3x4-5x8|0x4-3x4-5x8|---|---|

Intro

Verse

Pre-Chorus

Chorus

Pre-Solo
G:---|--------|--------|
D:---|--------|--------|
A:--5|7x12---5|7x12---5|
E:5--|-----5--|-----5--|

Solo
G:---------|
D:---------|
A:2x64-----|
E:-----3x64|

Verse

Pre-Chorus

Chorus

Chorus

End
G:---|-------------|-------------|-------------|-------------|---|
D:---|-------------|-------------|-------------|-------------|---|
A:--5|-------------|-------------|-------------|-------------|---|
E:5--|0-0-0-1-2-3x4|0-0-0-1-2-3x4|0-0-0-1-2-3x4|0-0-0-1-2-3x4|0-0|

That's it. This is such a kickass song! So play it with tude man! You can replace the 7's 
on the A-string to open E's if you'd like, it sounds fine also. The song is already in order 
so I made your life easier, for what reason I dont know. Any questions or comments, e-mail 
me at rocklvson@yahoo.com


ĂŽnscrie-te la newsletter


Join the ranks ! LIKE us on Facebook