Threat Tab - Skid Row






"The Threat"

--------------------------------------------------------------------------------
NOTE:

I play in a cover band and we play this song all the time, so this is how I think it's played. Any 
questions or corrections E-Mail them to iahn@caribe.net Listen to the CD for other guitar parts.
  Tablature Explanation:
p-pull off
h-hammer on
t-two hand tap
fb-full bend
^-tremolo picking
*#*-artificial harmonics

Intro: Play 3x

[---------------------------------------------------------------------------------------------]
[---------------------------------------------------------------------------------------------]
[---------------------------------------------------------------------------------------------]
[---------------------------------3p0---------------------------------------------------------]
[-----------------5p0---------------------------3--5-------------------------5p0--------------]
[--0---0--3--0--------3--0--------------3--0----------0------0--0--3--0--------3--0-----------]

[------------------------------------------------------------------------------------------]
[------------------------------------------------------------------------------------------]
[----------242---------------------------------------------------------------------------]
[----------353p0--3p0-------------------------------------------------3p0----------------]
[-------------------------------3--------------------------5p0-----------------------------]
[----------------------------------0-------0--0--3--0----------3--0------------3--0--------]


[-------------------------------------------------------------------------------------------]
[-------------------------------------------------------------------------------------------]
[-------------------------------------------------------------------------------------------]
[---------------------------------------------3--3--3--3--3--3--3---------------------------]
[---3--5-----------------------5p0----------------------------------------------------------]
[----------0----0--0--3--0----------3--0-----------------------------0----------------------]


           Verse 1:
         D5
 D   G5   F5
         Well, I've been convicted with and without reason,

          G5   C5 D5
tarred and feathered like a piper on a killing spree,       and I felt the anger

      D  G5  F5C5       F5
of generations,            and been a target of the cheap shots of authority


         D5  F5 F#5 G5  F5       F5  D5  F5  F#5 G5  F5

                                               So you think you cut me down to size

      F5 D5 F5 F#5 G5 D5
Well there's something you should realize

F5 D5 F5 F#5 G5 F5 C5
It's gonna take more than a break in the law to make me smile pretty for


        G5         D5                     C5   C5    Bb5       F5
the wreckin' ball.       Won't beg,     won't bleed.   The end of sacrifice is a threat to society

D5C5    C5   Bb5     F5
      Hard line,       you'll see. Once you've made a mark, you've made a threat to society,

         F5              G5
threat to society


Verse 2:Same as Verse 1


Guitar Solo:  A balls out solo by  Snake played very clean and  fast.

[------------------------------------------10----------10--1015--13-----13----------------------]
[-------------------------------12--10-------10------------------------15-----15fb15-------------]
[-------------------------------12--10-----------10----------------------------------------------]
[--------3--3fb---------512---------------------------------------------------------------------]
[--3--5----------5--3--5-----------------------------------------------------------------3fb--3v-]
[------------------------------------------------------------------------------------------------]

[--------------------------------------------------------------------------------------------------]
[------13--*12*v----------------------------------------------------------------------10--13-------]
[--10-----------------------10------10--12--12fb--12fb10-------10--10fb---12------------12---------]
[----------------------12-------12------------------------10--12---------------12-----------------]
[--------------------------------------------------------------------------------------------------]
[--------------------------------------------------------------------------------------------------]

[---------------------------------------------------------------------------------------------------]
[---10h12p10------10--------------------------------------------------------------------------------]
[-----------------13-----13--12p1012p10-12fbv--------------------12fb12--12p10--12p10---------------]
[-----------------------------------------------------------3---------------------------------------]
[------------------------------------------------------3h5-----5--5--3------------------------------]
[---------------------------------------------------------------------------------------------------]

[---------------------------------------------------------------------------------------------------]
[--------------------------------------110------------------------------------10--t15p10h13-------]
[---13p10--12p10-------10--------------t12p7h10-t12p7h10-t12p10-------------------------------------]
[----------------------12--------12v----------------------------------------------------------------]
[---------------------------------------------------------------------------------------------------]
[---------------------------------------------------------------------------------------------------]

[--------------------------------t15p10h13----------15p13h15--------13-----13h15h17-----------------]
[-----t15p10h13-t15p10h13--------------t15p10--------------13--------15-----------------------------]
[---------------------------------------------------------------------------------------------------]
[---------------------------------------------------------------------------------------------------]
[---------------------------------------------------------------------------------------------------]
[---------------------------------------------------------------------------------------------------]

[----------------------10h12h13----------------------------------------------------------------------]
[---------------110---------------------------------------------------------------------------------]
[------------------------------------^5---------^79-----7---^910--1012--12--10--12-12-------------]
[---12--10v--------------------------------------------------------------------12--10--12-12---------]
[----------------------------------------------------------------------------------------------------]
[----------------------------------------------------------------------------------------------------]

[-------------------------------------------------------------------------10------------------------]
[---10h10p10-------10--13v---10h13--13fb-----13v---10------------13-10----------10------------------]
[------------------12---------------------------------------------12fb--------------12fb------------]
[---------------------------------------------------------------------------------------------------]
[---------------------------------------------------------------------------------------------------]
[---------------------------------------------------------------------------------------------------]

--------------------------------------------------------------------------------






Like us on Facebook