Youth Gone Wild (ver2) Bass Tab - Skid Row






Artist:Skid Row
Song:Youth Gone Wild
Album:Skid Row
Bassist:Rachel Bolan
Tabber:Dev Fuld

Ok, this is the best anthem ever. We are the youth gone wild!

Key:
* = let it ring
x = times a number

Intro
G:---|---|------|------|------------|
D:---|---|------|------|5*-5-3------|
A:1-1|1-1|------|------|-------5-3-0|
D:---|---|Chorus|Chorus|------------|

Chorus
G:-------------------------------------------------|
D:-------------------------------------------------|
A:-------------------------------------------------|
D:5-3-5--5-5--3-5-3-5--5-5-1--1-1--1-1--1-1--1-1--3|

Verse
G:-----------|
D:-----------|
A:-----------|
D:5*--3-1*--3|

Pre-Chorus
G:-----------------|----------|
D:--------5--------|----------|
A:----------5-3-1-0|-----6*-5*|
D:3x16-5*----------|3x16------|

Solo
G:---------|---------|------------------|
D:---------|---------|------------------|
A:---------|---------|55-55-6-6-6-5-3---|
D:7x16-3x16|7x16-3x16|----------------5*|

Chorus with breaks
G:------|------|
D:------|------|
A:1-----|1-----|
D:--3-5*|--3-5*|

That's it. I'm not sure about the timings, but those are close. All the parts are there, 
you just gotta figure out the order. Any questions or comments, e-mail me at rocklvson@yahoo.com






Like us on Facebook