Youth Gone Wild (ver3) Bass Tab - Skid Row






Youth Gone Wild - Skid Row By Metalbass

  Intro
G|-----------|
D|-----------|
A|-----------|
E|-3-6-3-6-3-|

  Parte 1
G|---------------|
D|---------------|
A|--5-3-0-3-3-3--|
E|---------------|

  Parte 2
Bridge
G|---------------------------------|
D|---------------------------------|
A|-333-333-333-333-555-555-555-555-|
E|---------------------------------|

  Parte 3
G|------------------------------------------------------|
D|--------------------------------5-3-5--0--5-----------|
A|---------------------------------------------5-3------|
E|1--1-1-1-1-1-1-1-1-1-1-1-1-1-3-------------------6-5--|

    Guitar solo
G|---------------------------------|
D|---------------------------------|
A|-333-333-333-333-555-555-555-555-|
E|---------------------------------|

  Drum solo
G|--------|
D|--------|
A|-1------|
E|---1-3--|


Intro
Parte       1x8 | x2
  \        2x2 |
  \        3   |
  \        2   |
  \        1x8
  \        2(12)
Guitar solo x2
Drum solo   x2
Parte       1 fino alla fine






Like us on Facebook