Youth Gone Wild Bass Tab - Skid Row




-------------------------------------------------------------------------------
       Youth Gone Wild - Skid Row
-------------------------------------------------------------------------------

Tabbed By : Nick Johnson 

  Intro
G|------------------------------------------------------|
D|------------------------------------------------------|
A|------------5-3-0-3-3-3-0--5-3-0-3-3-1--5-3-0-3-3-3-1-|
E|-3-6-3-6-3--------------------------------------------|

  Verse
G|-----------------------------|
D|-3-5--3-1---3-5--3-1-1p0h1p0-|
A|-----------------------------|
E|-----------------------------|

  Pre Chorus
G|------------------------------------------------------|
D|--------------------------------5p3h5--0--5-----------|
A|---------------------------------------------5-3------|
E|1--1-1-1-1-1-1-1-1-1-1-1-1-1-3-----------3-------6-5--|
 
  Chorus
G|----------------------------------------------|
D|----------------------------------------------|
A|----5-3-0-3-3-3-0--5-3-0-3-3-1--5-3-0-3-3-3-1-|
E|-3--------------------------------------------|

  Bridge
G|-------|
D|-------|
A|-1-----|
E|--1-3--|


===============================================================================

ĂŽnscrie-te la newsletter


Join the ranks ! LIKE us on Facebook