Youth Gone Wild Tab - Skid Row




Love this song, just thought UG needed this tab. Props goto the Simon V.
CuPbOaRdS 

"YOUTH GONE WILD" - SKID ROW

(FROM THE ALBUM: "SKID ROW")

NOTE: I'm a rhythm player so this is basically just the rhythm parts of 
the song. It's not 100% correct, but the basics are here - so just
listen to the song for the correct strumming and rhythm.
Enjoy!

Simon V.

 

INTRO:
e|--------------|
B|--------------|
G|--3-3--3-3----|
D|--3-3--3-3----|
A|--1-1--1-1----|
E|--------------|


e|------------------|---------------|---------------|-----------------|
B|------------------|---------------|---------------|-----------------|
G|----5-3-0--2-3-0--|-5-3-0--2-3-3--|-5-3-0--2-3-3--|-----------------|
D|-5--5-3-0--3-3-0--|-5-3-0--3-3-1--|-5-3-0--3-3-1--|-1p0-0-0---------|
A|-5----------------|---------------|---------------|---------1p0-0---|
E|-3----------------|---------------|---------------|-----------------|


e|------------------|---------------|---------------|-----------------|
B|------------------|---------------|---------------|-----------------|
G|----5-3-0--2-3-0--|-5-3-0--2-3-3--|-5-3-0--2-3-3--|-----------------|
D|-5--5-3-0--3-3-0--|-5-3-0--3-3-1--|-5-3-0--3-3-1--|-1p0-0-0---------|
A|-5----------------|---------------|---------------|---------1p0-0---|
E|-3----------------|---------------|---------------|-----------------|

e|------------------|
B|------------------|
G|------------------|

ĂŽnscrie-te la newsletter


Join the ranks ! LIKE us on Facebook