Comatose Intro Tab - Skillet






this is the intro on strings...strings are a pain in the A$$ to tab out btw...so heres 
best i could do...


e|---------15--15-14-15------17--17-15-14---------15--------17--15--14--|
B|----------------------------------------------------------------------|
G|----------------------------------------------------------------------|
D|----------------------------------------------------------------------|
A|-14--14----------------15-------------------14-----14-15--------------|
E|----------------------------------------------------------------------|

                 one octave
                 higher but
                 guitars dont
                 go that high
e|-----15-14-15---15-14-15----15-14-15---15-14-------------------------|
B|---------------------------------------------15----------------------|
G|------------------------------------------------------16--17--16-----|
D|---------------------------------------------------------------------|
A|-14-----------------------------------------------14-----------------|
E|---------------------------------------------------------------------|

yea this whole thing goes twice...and there is another guitar over it the second 
i think the one tab already has that part and im too lazy to tab it...so check that one urself....

well this is only my second tab so be easy on the critiques....

malakian19






Like us on Facebook