Imperfection Bass Tab - Skillet






Song: Imperfection
Band: Skillet
Album: Collide

Tabbed by: Dan Cooper

Tuning - Drop C# (drop D, half-step down)

This song had bothered me for so long because there was no bass tab for it. I guess it took 

another Cooper to figure out John Cooper's bass line... Sorry for flop on the chorus:(

Intro/Verse

F#|-------------------------------|
C#|-------------------------------|
G#|-----------------------------7-|
C#|-4444-4444-0000-4444-4444-404--|

F#|-------------------------------|
C#|-------------------------------|
G#|-5555-5555-5457-5555-5555-0~---|
C#|-------------------------------|


Pre-Chorus 1

F#|---------------------|
C#|---------------------|
G#|--5-5~-11-12-5-5~-9~-|
C#|---------------------|


Chorus (This is quite dumbed down from what John plays)

F#|------------------------------|
C#|------------------------------|
G#|---------444444-455555-5554---|
C#|--444444-------------------77-|


Post Chorus (don't play the first time)

F#|---------------------------------|
C#|--------44422--22------444227766-|
G#|-------------44------------------|
C#|--44-44-----------44-44----------|

Pre-Chorus 2

F#|---------------------|
C#|---------------------|
G#|--1212~-67~--5-5~-9~-|
C#|---------------------|

Enjoy and God Bless!






Like us on Facebook