Invincible Bass Tab - Skillet






Band: Skillet
Song: Invincible
Album: Invincible
Tabbed by: Kelly
e-mail: walkin_with_jesus@juno.com

"I, I'm invincible.  I'm undestructible....."
figure 1
G-------------------------------|
D-------------------------------|
A-3--------3--------3-----------|
E---2-1-1----2-1-1----2-1-1---1-|

"You know you just can't......"
figure 2
G-------------------------------------------|
D-------------------------------------------|  X2
A-3333------------6666------------66666666--|
E------1111--4444------1111--4444-----------|

"To be invincible....."
G---------------------|
D---------------------|
A-3-------3-----------| after played add on figure 1
E---2-1-1---2-1-1---1-|

figure 2 X2

figure 3
G--------------------|
D--------------------|    X3
A----------4-4--6-6--|
E-4-4--6-6-----------|

figure 2 X2

G----------------------------------|
D----------------------------------|
A----------------6666-----------6--|
E-3333-1111-4444------1111-4444----|

figure 2 X4






Like us on Facebook