Kill Me Heal Me Bass Tab - Skillet






Skillet is awesome their like christian orgy, check it out.
Their bass might have a little dist. but you can play it either way.

Intro and Verse:
g|---------------------------------------------------------------------------
d|---------------------------------------------------------------------------
a|------------------------------3--------------------------------------------
c|-00xx00xx00xx-3-3-00xx00xx00xx-3-------------------------------------------

Chorus:
g|---------------------------------------------------------------------------
d|---------------------------------------------------------------------------
a|---------------------------------------------------------------------------
c|-7--7--5--5--3--3--1--1----------------------------------------------------

Interlude:
g|---------------------------------------------------------------------------
d|---------------------------------------------------------------------------
a|---------------------------------------------------------------------------
c|-7----5----2---------------------------------------------------------------






Like us on Facebook