Last Night (ver2) Tab - Skillet






Skillet: The Last Night
Album: Comatose
2006 Atlantic Records
Drop B Tuning B-F#-B-E-G#-C#

palm mute=...etc

Intro
Piano
Then
C#[--------------------------------------------]
G#[--------------------------------------------]
E [--------------------------------------------]
B [-0/0/0-0/0/0--0/0/0-8/8/8-8/8/7--0/0/0/0----]
F#[-0/0/0-0/0/0--0/0/0-8/8/8-8/8/7--0/0/0/0----]x2
B [-0/0/0-0/0/0--0/0/0-8/8/8-8/8/7--0/0/0/0----]
                                    .......

Verse 1
Keyboard/Piano
Then
C#[------------------------------------------------------------------------]
G#[------------------------------------------------------------------------]
E [------------------------------------------------------------------------]
B [-7/7/5/5/10/10/8/8/7/7/5/5/3/3/2/2-7/7/5/5/10/10/8/8/7/7/5/5/3/3/5/5----]
F#[------------------------------------------------------------------------]
B [------------------------------------------------------------------------]
    ................................. ..................................

C#[------------------------------------------]
G#[------------------------------------------]
E [------------------7/7/7/7/7/7/7/7-7--5----]
B [-7/7/5/5/10/10/8/8----------------7--5----]
F#[----------------------------------5--3----]
B [------------------------------------------]
    ................................

Chorus
C#[----------------------------------]
G#[----------------------------------]
E [-------------5--------------------]
B [-8---0---3---5---8---0---10--8----]
F#[-8---0---3---3---8---0---10--8----]x2
B [-8---0---3-------8---0---10--8----]

Post-Chorus
C#[--------------------------------------------]
G#[--------------------------------------------]
E [--------------------------------------------]
B [-0/0/0-0/0/0--0/0/0-8/8/8-8/8/7--0/0/0/0----]
F#[-0/0/0-0/0/0--0/0/0-8/8/8-8/8/7--0/0/0/0----]
B [-0/0/0-0/0/0--0/0/0-8/8/8-8/8/7--0/0/0/0----]
                                    .......

Verse 2
(Same as Verse 1)

Chorus

Bridge
The other guitar plays something during the bridge but its to indistinct
for me to tab it.
C#[----------------------------------------------------]
G#[----------------------------------------------------]
E [---------------------7---5-----------------7---5----]
B [-5----8----0----5----7---5--8----0----5----7---5----]
F#[-5----8----0----5----5---3--8----0----5----5---3----]
B [-5----8----0----5-----------8----0----5-------------]

C#[------------------------------------------]
G#[------------------------------------------]
E [------------------------------------------]
B [-5/5/5-5/5/5--5/5/5-5/5/5-5/5/5--5/5/5----]
F#[-5/5/5-5/5/5--5/5/5-5/5/5-5/5/5--5/5/5----]
B [-5/5/5-5/5/5--5/5/5-5/5/5-5/5/5--5/5/5----]

C#[--------------------------------------------]
G#[--------------------------------------------]
E [--------------------------------------------]
B [-5/5/5-5/5/5--5/5/5-5/5/5/5-5/5/5/5--5/5----]
F#[-5/5/5-5/5/5--5/5/5-5/5/5/5-5/5/5/5--5/5----]
B [-5/5/5-5/5/5--5/5/5-5/5/5/5-5/5/5/5--5/5----]
Stop

Chorus 2
C#[----------------------------------]
G#[----------------------------------]
E [-------------5--------------------]
B [-8---0---3---5---8---0---10--8----]
F#[-8---0---3---3---8---0---10--8----]x3
B [-8---0---3-------8---0---10--8----]

Ending
C#[-----------]
G#[-----------]
E [-----------]
B [-5----8----]
F#[-5----8----]
B [-5----8----]
Then Piano   






Like us on Facebook