Older I Get Intro (ver2) Tab - Skillet






I'm pretty sure this version is correct so enjoy!


e|----------13--12-------------------------------------------------------------------|
B|------------------10--8---8  10----------------------------------------------------|
G|---12-14---------------------------------------------------------------------------|
D|-----------------------------------------------------------------------------------|
A|-----------------------------------------------------------------------------------|
E|-----------------------------------------------------------------------------------|


e|--------------------------------------------------------------------------------------|
B|---13--13--12  8----------------------------------------------------------------------|
G|--------------------------------------------------------------------------------------|
D|--------------------------------------------------------------------------------------|
A|--------------------------------------------------------------------------------------|
E|--------------------------------------------------------------------------------------|






Like us on Facebook