Older I Get Intro (ver3) Tab - Skillet






Skillet
Older I Get
Comatose

the intro is all i have. but all the other ones arent good. this one is 100%.

|--------------------------------------|
|-------18-17--------------13-13-------|
|-12/14-------14-1412--12-------16-12-|
|--------------------------------------|
|--------------------------------------|
|--------------------------------------|

|-----------------------------------------|
|-------18-17--------------13-13-13/15----|
|-12/14-------14-1412--12-------------12-|
|-----------------------------------------|
|-----------------------------------------|
|-----------------------------------------|

/ slide up
 slide down

that has to be perfect. please rate!






Like us on Facebook