Older I Get Intro (ver4) Tab - Skillet






s = slide
h = hammer on


e|-------13--12------------------------------------------------------------|
A|---------------10--10s8--8-13-13-12--8-----------------------------------|
D|-12h14-------------------------------------------------------------------|
G|-------------------------------------------------------------------------|
B|-------------------------------------------------------------------------|
E|-------------------------------------------------------------------------|



e|-------13--12------------------------------------------------------------|
A|---------------10--10s8--8-13-13-13s15--8--------------------------------|
D|-12h14-------------------------------------------------------------------|
G|-------------------------------------------------------------------------|
B|-------------------------------------------------------------------------|
E|-------------------------------------------------------------------------|







Like us on Facebook