Older I Get Intro Tab - Skillet






this is the intro this is all i know but please rate me man it has to sound good (Y) n 
n if u wanna e-mail me then do it elliott_sutherland@hotmail.com and im only 14 m

here it is,

 SKILLET __ THE OLDER I GET


|----------14--12--11-11/7~-----------11-11---9---------------|
|--11/12--------------------------12---------------12~--------|
|-------------------------------------------------------------|
|-------------------------------------------------------------|
|-------------------------------------------------------------|
|-------------------------------------------------------------|

|----------14--12--11-11/7~-----------11-11---11/12-----------|
|--11/12--------------------------12------------------12~-----|
|-------------------------------------------------------------|
|-------------------------------------------------------------|
|-------------------------------------------------------------|
|-------------------------------------------------------------|

tell me im right n RATE ME






Like us on Facebook