Open Wounds Bass Tab - Skillet






Heya!  Open Wounds is finally here!  I'm pretty sure these tabs are really
close to the music but don't hate me if i'm wrong because I listened to the
song and then interpreted it the best I could. If I missed something or you
have suggestions, just post so. Just to let you know, you may want to listen
to the CD to follow along. The notes are right, but you may want to listen
to the song to get the rythm. Thanx bunches! Enjoy.

Verse:

Come in w/ this after "I'm gone."

G----------------------------------------|
D----------------------------------------|
A--0--0----------0-----------------------|
E---3--1-1-313---------------------------|

G----------------------------------------|
D----------------------------------------|
A--0--0----------------------------------|
E----3--1-1-3----------------------------|

Pause, then go to Chorus.

Chorus:

G----------------------------------------|
D----------------------------------------|
A--00----------------------------0-------|   (last time hold out 'A open')
E------88-10-10-8-10-8-10-8--------------|    x4

Verse:  Come in w/ this after "Static."

G----------------------------------------|
D----------------------------------------|
A--0--0---------0------------------------|
E----3--1-1-313--------------------------|


G----------------------------------------|
D----------------------------------------|
A--0--0----------------------------------|
E----3--1-1-3----------------------------|    x2

Bridge:  At "Tell me why."

G----------------------------------------|
D----------------------------------------|
A----------------------------------------|
E--1-1-5-5-5-5-5-5-5---------------------|

G----------------------------------------|
D----------------------------------------|
A----------------------------------------|
E--1-1-0-0-1-5555-555--------------------|

G----------------------------------------|
D----------------------------------------|
A----------------------------------------|
E--5-1-1-1-0-0-1-5-5-5-3-3-1-------------|

G----------------------------------------|
D----------------------------------------|
A----------------------------------------|
E--0-0-1-0-0-1-1111----------------------|

G----------------------------------------|
D----------------------------------------|
A----------------------------------------|
E--5555-1111-333-555555555---------------|

G----------------------------------------|
D----------------------------------------|
A----------------------------------------|
E--1111-33333333-------------------------|

Final Chorus:  (End)

G----------------------------------------|
D----------------------------------------|
A--00------------------------------------|
E------88-10-10-8-10-8-10-8--------------|


G----------------------------------------|
D----------------------------------------|
A--00------------------------------------|
E------88-10-10-8-10-8-10-8--------------|

Fast

G----------------------------------------|
D----------------------------------------|
A----------------------------------------|
E--55-8-555-8-55-8-5555------------------|

=========================================
Tabbed by Nicolio
=========================================






Like us on Facebook