Rebirthing Bass Tab - Skillet






Skillet - Rebirthing
From the album - Comatose
Copyright 2006 Atlantic Records
Tabbed by Adam J (jffromsota)

Drop D tuning (DADG)

Intro
G ----------------------------------------------------------|
D ----------------------------------------------------------|
A ----------------------------------------------------------|
D --00--00---0---00--00---000---00--00---0---00--00---000---|

Verse
G ----------------------------------------------------------|
D ----------------------------------------------------------|
A ----------------------------------------------------------|
D --00--00---0---00--00-------00--00---0---00--00-----------|x2

Pre-Chorus
G ----------------------------------------------------------|
D ----------------------------------------------------------|
A ----------------------------------------------------------|
D --55555555-77777777-88888888-1010101010101010-5-7-8-10----|

Chorus
G ----------------------------------------------------------|
D ----------------------------------------------------------|
A ----------------------------------------------------------|
D --0--5-3--8--10--8--0--10--8------------------------------|x2

Post-Chorus
G ------------|
D ------------|
A ------------|
D --777--888--|

Intro
Verse
Pre-Chorus
Chorus
Post-Chorus

Bridge
G ------------------------------------|
D ------------------------------------|
A ------------------------------------|
D -----0--00-0--0--0----0--00-0--0-0--|

During Solo and 2nd Bridge
G ---------------|
D ---------------|
A ---------------|
D --8--0--10--8--|x4

Bridge 3
G ---------------------------------------------|
D ---------------------------------------------|
A ---------------------------------------------|
D --7--8--7--8--7--7--8--7--8--7--5--7--8--10--|

Chorus
Post-Chorus
Intro

END






Like us on Facebook