The Last Night Intro Tab - Skillet






Intro

e-10------10----------10-------10-9-10-9-7-------------|
B---7-8-7----8-10-8-7----7-8-7-------------8-7---------|
G------------------------------------------------------|
D------------------------------------------------------|
A------------------------------------------------------|
E------------------------------------------------------|

Outro

e-10------10----------10-------10-9-10-9-7-------------|
B---7-8-7----8-10-8-7----7-8-7-------------8-7---------|
G----------------------------------------------7-6-----|
D--------------------------------------------------9---|
A------------------------------------------------------|
E------------------------------------------------------|






Like us on Facebook