The Older I Get Intro (ver2) Tab - Skillet






|--------10--10--9--9-----------5--5--4----------10--10-9--9----|
|--5/7-----------------7/5--5------------5--5/7-----------------|
|---------------------------------------------------------------|
|---------------------------------------------------------------|
|---------------------------------------------------------------|
|---------------------------------------------------------------|

|-------10--10--9--9-----------5--5--4----------10--10--9--9----|
|--5/7-----------------7/5--5------------5--5/7-----------------|
|---------------------------------------------------------------|
|------------------------------------------(end of intro)-------|
|---------------------------------------------------------------|
|---------------------------------------------------------------|






Like us on Facebook