The Older I Get Intro Tab - Skillet






hey this is my first tab and for all i know it's right,but if it's not don't hold back 
the criticism. I'll try to post the rest late. Please rate!!!!


|-------14-13--9-9/7-----------------------|
|--8h9-----------------8h9/14--14--16-16/9-|
|------------------------------------------|
|------------------------------------------|
|------------------------------------------|
|------------------------------------------|

|-------14-13--9-9/7-----------------------|
|--8h9-----------------8h9/14--14--16-16/9-|
|------------------------------------------|
|------------------------------------------|
|------------------------------------------|
|------------------------------------------|






Like us on Facebook