The Older I Get Tab - Skillet






Artist: Skillet
Song: The Older I Get
Tabbed by: Codie

Here's the tab, although i used power chords cuz i couldnt figure out the exact chords
it sounds about right. Oh yeah, and for the strumming pattern, you dont have to play it
its written here. It's just for if you're strumming straight up and down rhythm (for the 
part). If there are any comments/corrections, let me know =)

/=slide up
=slide down
h=hammer on

(intro) - let the notes ring

|--------13--13--12--12---------------8--8--7-----------13--13--12--12----|
|--8/10------------------10--10/8--8-----------8--8/10--------------------|
|-------------------------------------------------------------------------|
|-------------------------------------------------------------------------|
|-------------------------------------------------------------------------|
|-------------------------------------------------------------------------|

|---------------8--8--8h10------------------------------------------------|
|--10--10/8--8--------------8---------------------------------------------|
|-------------------------------------------------(end of intro)----------|
|-------------------------------------------------------------------------|
|-------------------------------------------------------------------------|
|-------------------------------------------------------------------------|

(Verse)
|-------------------------------------------------------------------------|
|-------------------------------------------------------------------------|
|------------5-5555555----------------------------------------------------|
|----7777-x--5-5555555--5555-x-3-3333--555--------------(play 4x)---------|
|----7777-x--3-3333333--5555-x-3-3333--555--------------------------------|
|----5555-x-------------3333-x-1-1111--333--------------------------------|

during the verses, you can hear one of the guitars picking in the background its almost
same thing as the intro.


|--------13--13--12--12---------------8--8--7-----------13--13--12--12----|
|--8/10------------------10--108--8-----------8--8/10--------------------|
|-------------------------------------------------------------------------|
|-------------------------------------------------------------------------|
|-------------------------------------------------------------------------|
|-------------------------------------------------------------------------|

|---------------8--8--8h10----------|
|--10--108--8--------------8-------|
|-----------------------------------|
|-----------------------------------|
|-----------------------------------|
|-----------------------------------|

(Pre-chorus)
|-------------------------------------------------------------------------|
|-------------------------------------------------------------------------|
|--77777777--99999999--1010101010101010--1010101010101010--77777777-------|
|--77777777--99999999--1010101010101010--1010101010101010--77777777-------|
|--55555555--77777777--8-8-8-8-8-8-8-8---8-8-8-8-8-8-8-8---55555555-------|
|-------------------------------------------------------------------------|

|-------------------------------------------------------------------------|
|-------------------------------------------------------------------------|
|--99999999--10101010101010101010-----------------------------------------|
|--99999999--10101010101010101010-----------------------------------------|
|--77777777--8-8-8-8-8-8-8-8-8-8------------------------------------------|
|-------------------------------------------------------------------------|

(Chorus) - for this part, u can just strum up and down to the rhythm of the song.

|-------------------------------------------------------------------------|
|-------------------------------------------------------------------------|
|----------------------------------------------------------77777777-------|
|--1010101010101010--1010101010101010--55555555--55555555--77777777-------|
|--1010101010101010--1010101010101010--55555555--55555555--55555555-------|
|--8-8-8-8-8-8-8-8---8-8-8-8-8-8-8-8---33333333--33333333-----------------|

|-------------------------------------------------------------------------|
|-------------------------------------------------------------------------|
|--99999999--1010101010101010--1010101010101010---------------------------|
|--99999999--1010101010101010--1010101010101010--1010101010101010---------|
|--77777777--8-8-8-8-8-8-8-8---8-8-8-8-8-8-8-8---1010101010101010---------|
|------------------------------------------------8-8-8-8-8-8-8-8----------|

|-------------------------------------------------------------------------|
|-------------------------------------------------------------------------|
|----------------------------------------77777777--99999999-99999999-99---|
|--1010101010101010--55555555--55555555--77777777--99999999-99999999-99---|
|--1010101010101010--55555555--55555555--55555555--77777777-77777777-77---|
|--8-8-8-8-8-8-8-8---33333333--33333333-----------------------------------|

(Bridge)

|-------------------------------------------------------------------------|
|-------------------------------------------------------------------------|
|----------------------55555555--55555555--77777777--77777777-------------|
|--77777777--77777777--55555555--55555555--77777777--77777777-------------|
|--77777777--77777777--33333333--33333333--55555555--55555555-------------|
|--55555555--55555555-----------------------------------------------------|

|-------------------------------------------------------------------------|
|-------------------------------------------------------------------------|
|-------------------------------------------55555555----------------------|
|--33333333--55555555---77777777--77777777--55555555----------------------|
|--33333333--55555555---77777777--77777777--33333333----------------------|
|--11111111--33333333---55555555--55555555--------------------------------|

|-------------------------------------------------------------------------|
|-------------------------------------------------------------------------|
|--55555555--77777777--77777777--10101010101010101010---------------------|
|--55555555--77777777--77777777--10101010101010101010---------------------|
|--33333333--55555555--55555555--8-8-8-8-8-8-8-8-8-8----------------------|
|-------------------------------------------------------------------------|

outro is the chorus repeated a few times + the last 3 chords
|----------|
|----------|
|-7--9--10-|
|-7--9--10-|
|-5--7--8--|
|----------|

intro
verse 1 and intro(in the background)
prechorus
chorus
intro
verse 2 and intro(in the background)
prechorus
chorus
bridge
chorus (2X)
outro

etc...something like that lol. well,  have fun =). my e-mail is
if you have any questions/comments/corrections.






Like us on Facebook