Those Nights (ver2) Tab - Skillet






Drop B                   " THOSE NIGHTS " By Skillet
C#                    not my best work but good enough to give you a good
G#                    idea i will still work on it some more
E
B
F#
B


INTRO
-----------------------------------------------------|
-----------------------------------------------------|
-----------------------------------------------------|
-88------88-8----85-5-6-666-88------88-8----85-5-6-|
-66-10-8-88---10-85-5-6-666-66-10-8-88---10-85-5-6-|
---------88------85-5-6-666---------88------85-5-6-|

VERSE

-----------------------------------------------------|
-----------------------------------------------------|
-palm-------mute-speed-palmute-----------------------|
-8888888888888888-8888-------------------------------|
-8888888888888888-8888X2-----------------------------|
-8888888888888888-8888-------------------------------|

Prechorus

-----------------------------------------------------|
-----------------------------------------------------|
-Palm----mute----------------------------------------|
-999999999999----------------------------------------|
-999999999999----------------------------------------|
-999999999999----------------------------------------|

Chorus

----------------------------------------------------------|
----------------------------------------------------------|
-------pm---------10---------------pm--------12-----10----|
-88-88-88-8-8-8-9-X--88-8-8-9-9-9-1010-10-10--x-888-x--X2-|
-66-66-88-8-8-8-9-8--88-8-8-9-9-9-1010-10-10-10-888-8-----|
-------88-8-8-8-9----88-8-8-9-9-9-1010-10-10----888-------|

Outchorus

----------------------------------|
----------------------------------|
----------------------------------|
-88------88-8----85-5-6----------|
-66-10-8-88---10-85-5-6----------|
---------88------85-5-6----------|

Verse
Chorus
Outchorusx4

Interlude

------------------------------------------------------------------|
------------------------------------------------------------------|
-----------------------------------10--------12----12--------14---|
-88xxxx886-66xxxx88------------88-x--101010--x-88--X-101010--X---|
-66xxxx886-66xxxx88------------88-8--101010-10-88-10-101010-12---|
-------886-66xxxx88-pick slide-88----101010----88----101010------|

Chorus X2

Outro end with
--------------|
--------------|
-8~-----------|
-8~-----------|
-8~-----------|






Like us on Facebook