Those Nights Acoustic Intro Tab - Skillet






Those Nights Acoustic by Skillet
Tuning: Standard
Tabbed by: hero904 (Adan)
Intro:
1st Guitar
e|------------------------------------------------------------------|
B|------------------------------------------------------------------|
G|------------------------------------------------------------------|
D|------------------------------------------------------------------|
A|-10-10--5-5--7-7--3--3-3----10-10--5-5--7-7--3--3-3---------------|
E|-8--8---3-3--5-5--1--1-1----8--8---3-3--5-5--1--1-1---------------|

2nd Guitar
e|-----3-0------------------3-0--------------------------------------|
B|-5-3-----0-1-1-1-1----5-3-----0-1----------------------------------|
G|-------------------------------------------------------------------|
D|-------------------------------------------------------------------|
A|-------------------------------------------------------------------|
E|-------------------------------------------------------------------|

Feel free to rate and comment I will have the rest up in a few days. It is a awesome 
 Have fun.






Like us on Facebook