Those Nights Intro Tab - Skillet






----------------------------------------------------------------------------
                             THOSE NIGHTS - Skillet
----------------------------------------------------------------------------
Tabbed by: Stell Edling
Email: canadiansrule007@hotmail.com

Tuning:EADGBe

e|-------------------------------------------------------------------------|
B|-------------------------------------------------------------------------|
G|--12~~--12~~--12~~--12~~-------------------------------------------------|
D|---------------------------7-7------5-5-------2-2-2-2--3-3-3-------------|
A|---------------------------7-7-7-5--5-5-10-7--2-2-2-2--3-3-3-------------|
E|---------------------------5-5------3-3-------0-0-0-0--1-1-1-------------|


e|-------------------------------------------------------------------------|
B|-------------------------------------------------------------------------|
G|-------------------------------------------------------------------------|
D|--7-7------5-5-------2-2-2-2--3-3-3~~~~~~~~~~~---------------------------|
A|--7-7-7-5--5-5-10-7--2-2-2-2--3-3-3~~~~~~~~~~~---------------------------|
E|--5-5------3-3-------0-0-0-0--1-1-1~~~~~~~~~~~---------------------------|







Like us on Facebook