Those Nights Tab - Skillet






In drop D

----------------------------|
----------------------------|
----------------------------|
-5-5------------------------|
-3-3--7-5--5-5--10-7--2-2---|
-----------5-5--------2-2-3-| 2x's


(Palm muted)
-----------------------------------------------------------------|
-----------------------------------------------------------------|
-----------------------------------------------------------------|
---------------------------------5-5-5-5-5-5---------------------|
-7-7-7-7-7-7-3-3-3-3-3-3-3-3-3-3-3-3-3-3-3-3-5-5-5-5-5-5-5-5-5-5-|
-7-7-7-7-7-7-3-3-3-3-3-3-3-3-3-3-------------5-5-5-5-5-5-5-5-5-5-| 2x's

(Palm muted)
---------------------------------------------------|
---------------------------------------------------|
---------------------------------------------------|
---------------------------------------------------|
-0-0-0-0-0-0-0-0-0-0-0-0-0-0-0-0-3-3-3-3-3-3-3-3-3-|
-0-0-0-0-0-0-0-0-0-0-0-0-0-0-0-0-3-3-3-3-3-3-3-3-3-|

Chorus
--------------------------------|
--------------------------------|
--------------------------------|
-5-5----------------------------|
-3-3--5-5--3-3--3-3--7-7--2-2-3-|
------5-5--3-3--3-3--7-7--2-2-3-|

That's pretty much the whole song






Like us on Facebook