Whispers In The Dark Bass Tab - Skillet






Intro(enter after piano part)   0:18
B-0-000000-00-0-000000-|
E----------------------|
A----------------------|
D----------------------|
G----------------------|
The intro's its not perfect, but you can figure the timing out

Verse (x8)   0:28
B-000-00-2222-----------|
E-----------------------|
A-----------------------|
D-----------------------|
G-----------------------|

pre-chorus
B-00000-2222   0:48
E-----------------------|
A-----------------------|
D-----------------------|
G-----------------------|

Chorus (x2)     0:51
B-0----------2x8-3x8----|
E----3--0x16------------|
A-----------------------|
D-----------------------|
G-----------------------|

post chorus     1:11
B-0-000000-00-0-000000-|
E----------------------|
A----------------------|
D----------------------|
G----------------------|

Verse (x8)      1:21
B-000-00-2222-----------|
E-----------------------|
A-----------------------|
D-----------------------|
G-----------------------|

pre-chorus
B-00000-2222     1:42
E-----------------------|
A-----------------------|
D-----------------------|
G-----------------------|

Chorus (x2)      1:45
B-0----------2x8-3x8----|
E----3--0x16------------|
A-----------------------|
D-----------------------|
G-----------------------|

Bass during guitar solo      2:05
B----------------------0-0-0-0-0-|
E--------------------------------|
A-33333333-55555555--------------|
D--------------------------------|
G--------------------------------|

B---------------------------------|
E---------------------------------|
A-333333333-5---------------------|
D---------------------------------|
G---------------------------------|

post solo     2:21
B-0-000000-00-0-000000-|
E----------------------|
A----------------------|
D----------------------|
G----------------------|


Chorus (x2)   2:36
B-0----------2x8-3x8----|
E----3--0x16------------|
A-----------------------|
D-----------------------|
G-----------------------|

PAUSE  3:06---3:10

Ending Bass Licks   3:11
B-00000000-------------------------000-000-|
E---------00000000-2222222222222222--------|
A------------------------------------------|
D------------------------------------------|
G------------------------------------------|






Like us on Facebook