Whispers In The Dark Intro (ver3) Tab - Skillet






e|----------------------|
B|----------------------|
G|----------------------|
D|----------------------|
A|-15-17-15-18-17-15----|
E|-------------------15-|

e|-------------------------|
B|-------------------------|
G|-------------------------|
D|-------------------------|
A|-------17-15-18-17-18-18-|
E|-16-15-------------------|

repeat x2


e|-------------------------------------------------|
B|-------------------------------------------------|
G|-17-17-17-17-------------------------------------|
D|-------------17-17-17-17-18-18-18-18-17-17-17-17-|
A|-------------------------------------------------|
E|-------------------------------------------------|

e|-------------------------------------------|
B|-------------------------------------------|
G|-------------------------------------------|
D|-------------------------------------------|
A|-18-18-18-18-17-17-18-17-17-17-15-15-15-15-|
E|-------------------------------------------|






Like us on Facebook