Whispers In The Dark Tab - Skillet






Skillet: Whispers In The Dark
From: Comatose
Tabbed By: BRANDONJOHNSTUN
Drop B Tuning

palm mute=...etc
p=pull off
h=hammer on
~=let it ring

Intro
Keyboard
Then
Gtr. 2
C#[-------------------------------------------]
G#[-------------------------------------------]
E [------------------10-----------------------]
B [-0--0-0-0-0-0/0/0--x-0--0-0-0/0-0/0/0/0----]
F#[-0--0-0-0-0-0/0/0--8-0--0-0-0/0-0/0/0/0----]x2
B [-0--0-0-0-0-0/0/0----0--0-0-0/0-0/0/0/0----]
               ...             .   .....

Gtr. 1
C#[-22-17-18-17-13-12/13-12-10----]
G#[-------------------------------]
E [-------------------------------]
B [-------------------------------]
F#[-------------------------------]x2
B [-------------------------------]

Verse 1
C#[----------------------]
G#[----------------------]
E [----------------------]
B [-0/0/0-0-0-2/2/2/2----]
F#[-0/0/0-0-0-2/2/2/2----]x9
B [-0/0/0-0-0-2/2/2/2----]
    ...       .......

Chorus
C#[---------------------------]
G#[------11-------------------]
E [-7-----x-------------------]
B [-x-0---8-8----5----3--2----]
F#[-5-0-----8----5----3--3----]
B [---0-----8----5----3--2----]
                 .............

C#[---------------------------]
G#[------11-------------------]
E [-7-----x-------------------]
B [-x-0---8-8----5----3--2----]
F#[-5-0-----8----5----3--3----]Stop
B [---0-----8----5----3--2----]
                 ........

Post-Chorus
(Same as Intro)

Verse 2
(Same as Verse 1)

Chorus 2
C#[---------------------------]
G#[------11-------------------]
E [-7-----x-------------------]
B [-x-0---8-8----5----3--2----]
F#[-5-0-----8----5----3--3----]x2
B [---0-----8----5----3--2----]
                 .............

Bridge
Gtr. 2
C#[----------------------------------]
G#[----------------------------------]
E [----------------------------------]
B [-8----10----0----10----8----10----]
F#[-8----10----0----10----8----10----]
B [-8----10----0----10----8----10----]

Gtr. 1
C#[--------12--------------------12---------------------12-----8-----]
G#[-10/8/10---10/8/10p8/6-10/8/10---10p8/6/8p6/5-10/8/10---10/8-8----]
E [------------------------------------------------------------------]
B [------------------------------------------------------------------]
F#[------------------------------------------------------------------]
B [------------------------------------------------------------------]

C#[-8p6/5/6p5/3/5p3/1/3p1/0-8--10--12--13--17---20----------------]
G#[-----------------------------------------------20/18/20p18/17--]
E [---------------------------------------------------------------]
B [---------------------------------------------------------------]
F#[---------------------------------------------------------------]
B [---------------------------------------------------------------]

C#[-20---------------------------------------------------------------12~~~--]
G#[---20/18/20p18/17-----------------------------------------10h11/13-------]
E [--------------------------------------------7h9/10/9h10/12---------------]
B [-----------------(Gtr. 3 for alittle)-7h8/10-----------------------------]
F#[-------------------------------------------------------------------------]
B [-------------------------------------------------------------------------]

C#[-20--------------20---------------12~~~----]
G#[---20/18/20p18/17--20/18/20p18/17----------]
E [-------------------------------------------]
B [-------------------------------------------]
F#[-------------------------------------------]
B [-------------------------------------------]

Gtr. 3
C#[------8----------------8------------------8------------]
G#[-6/5/6--6/5/6p5/3-6/5/6--6p5/3/5p3/1-6/5/6--6/5/8/5----]
E [-------------------------------------------------------]
B [-------------------------------------------------------]
F#[-------------------------------------------------------]
B [-------------------------------------------------------]

C#[----------------------------------------------------20------------------]
G#[-10p8/6/8p6/5/6p5/3/5p3/1-5--6--8--10--13---17h18/20--20/18/20p18/17----]
E [------------------------------------------------------------------------]
B [------------------------------------------------------------------------]
F#[------------------------------------------------------------------------]
B [------------------------------------------------------------------------]

C#[-20-----------------------------------------------------------------------]
G#[---20/18/20p18/17----------------------------------------10h11/13/17h18/20]
E [-----------------------------------9h10/12-7h9/10/9h10/12-----------------]
B [-----------------------2h3/5/7h8/10---------------------------------------]
F#[------------------0h3/5---------------------------------------------------]
B [--------------------------------------------------------------------------]

C#[-20~~~--20--------------20------------------]
G#[----------20/18/20p18/17--20/18/20p18/17----]
E [--------------------------------------------]
B [--------------------------------------------]
F#[--------------------------------------------]
B [--------------------------------------------]

Interlude
(Same as Intro)

Then
Gtr. 1
C#[--------------------------------------]
G#[--------------------------------------]
E [--------------------------------------]
B [-8/7/8/10/8/7/8/7/8/7/8/10/8/7/8/7----]
F#[--------------------------------------]
B [--------------------------------------]
    .....................................

Then Both Guitars
C#[--------------------------------------]
G#[--------------------------------------]
E [--------------------------------------]
B [-8/7/8/10/8/7/8/7/8/7/8/10/8/7/8/7----]
F#[--------------------------------------]
B [--------------------------------------]
Stop

Chorus 3
C#[---------------------------]
G#[------11-------------------]
E [-------x-------------------]
B [---0---8-8----5----3--2----]
F#[---0-----8----5----3--3----]
B [---0-----8----5----3--2----]
                 .............

C#[---------------------------]
G#[------11-------------------]
E [-7-----x-------------------]
B [-x-0---8-8----5----3--2----]
F#[-5-0-----8----5----3--3----]
B [---0-----8----5----3--2----]
                 .............

Then
Gtr. 2
C#[---------------------------]
G#[---------------------------]
E [-7-------------------------]
B [-x-0----8-0---5----3--2----]
F#[-5-0----8-0---5----3--3----]
B [---0----8-0---5----3--2----]

Gtr. 1
C#[-22-17-18-17-22-17-18-17-22-17-18-17-13-12/13-12-10----]
G#[-------------------------------------------------------]
E [-------------------------------------------------------]
B [-------------------------------------------------------]
F#[-------------------------------------------------------]
B [-------------------------------------------------------]

Ending
Gtr. 1
C#[--------------------------------------------------------------------]
G#[--------------------------------------------------------------------]
E [--------------------------------------------------------------------]
B [-7/5/7/8/7/5/7/5/7/5/7/8/7/5/7/5-7/5/7/8/7/5/7/5/7/5/7/8/7/5/7/5----]
F#[--------------------------------------------------------------------]
B [--------------------------------------------------------------------]
    ................................

Then Both Guitars
C#[-----------------------------------------------------------------------]
G#[-----------------------------------------------------------------------]
E [-----------------------------------------------------------------------]
B [-7/5/7/8/7/5/7/5/8/7/8/10/8/7/8/7/7/5/3/5/3/2/3/2/7/5/3/5/3/2/3/2------]
F#[-----------------------------------------------------------------------]
B [-----------------------------------------------------------------------]

Then
C#[-----------------]
G#[-----------------]
E [-----------------]
B [-0/0/0--0/0/0----]
F#[-0/0/0--0/0/0----]
B [-0/0/0--0/0/0----]








Like us on Facebook