Your Name Is Holy Tab - Skillet






Band:skillet
Tab:your name is holy
Tabbed by:Aaron hartwig

intro 7X I think
e--------------------------------------------------------------------------|
B--------------------------------------------------------------------------|
G-14-14-14-14-14-1413-13-13-13-13-1311-11-11-11-11-117-7-7-7-7-7--------|
D-X--X--X--X--X--X--X--X--X--X--X--X--X--X--X--X--X--X--X-X-X-X-X-X--------|
A-12-12-12-12-12-1211-11-11-11-11-119--9--9--9--9--9-5-5-5-5-5-5--------|
E--------------------------------------------------------------------------|
verse
e--------------------------------------------------------------------------|
B--------------------------------------------------------------------------|
G-------------------------------------7-7-7-7-7-7--------------------------|
D-7-7-7-7-7-7-2-2-2-2-2-2-4-4-4-4-4-4-7-7-7-7-7-7--------------------------|
A-7-7-7-7-7-7-2-2-2-2-2-2-4-4-4-4-4-4-5-5-5-5-5-5--------------------------|
E-5-5-5-5-5-5-0-0-0-0-0-0-2-2-2-2-2-2--------------------------------------|

Thats it 






Like us on Facebook