Nobody (ver2) Tab - Skindred




ok i dont know what tunning this is in i play in in drop D and it sounds good enuff
for me...enjoy..please email me with the real tab if u have it tha_cardinal@yahoo.com

e---------14-12-14-----14-12-14-             --------------------------|
b-------------------------------             --------------------------|
g-------------------------------  Intro then --------------------------|
d----0-0-----------0-0----------             --------------------------|
a----0-0-----------0-0----------             --------------------3-----|
D----0-0-----------0-0----------             -0-0-1-0--0-0-1h3p0-------|


e---------------------------------------|
b---------------------------------------|
g----------------3-----------------3----|
d-0-0-1-0--1h3p0-3--0-0-1-0--3p1p0-3----| Verse then play Intro again then...
a-0-0-1-0--1h3p0-3--0-0-1-0--3p1p0-3----|
D-0-0-1-0--1h3p0----0-0-1-0--3p1p0------|

Chrous
e---------------------------------------then------------------------|
b---------------------------------------it--------------------------|
g---------------------------------------gets------------------------|
d----------------3--------------3-------heavy-----------------------|
a---4h3--4h3-4h3---4h3--4h3-4h3-------------------------------------|
D-----------------------------------------------1h0--1h0-1h0-3-1h0--|

play Verse Intro then Chrous again then...yeah u can pry figure it out from here
ĂŽnscrie-te la newsletter


Join the ranks ! LIKE us on Facebook