Nobody Acoustic Tab - Skindred




Tuning is standard apart from E string which is tuned to a low G.
This song consists of about 3 guitar parts and I got this by listening so It may not be perfect.

intro
e------------------------|
b------------------------|
g------------0-----------|    X4
d---------8--------8-----|
a-----8s10-10-10-10------|
G--0-0-------------------|

verse
e------------------------|
b------------------------|
g---------------10s12----|   X4
d---8---8---8------------|
a--10--10--10-10---------|
G-0----------------------|

back to intro

chorus
e--------------              e--------|
b---8----------              b--------|
g------7--3---0   X3  then   g--------|
d--------------              d-3-3--6-|
a--------------              a-3 3--6-|
G-0--0--0--3b4-              G-0-0--3-|

back to verse.

That's about it really any problems or comments email louis.hudson1@btinternet.com  cheers

ĂŽnscrie-te la newsletter


Join the ranks ! LIKE us on Facebook