Nobody Tab - Skindred




Skindred: Nobody
tabbed by: Chops bracertj@hotmail.com
Drop C

G1(intro/pre-chorus)
d-----------------------------|
A-----------------------------|
F-----------------------------|
C-00--------------------------|
G-00--------------------------|
C-00--------------------------|
   My sound we come to take over
   M.C.'s you better look over your shoulder
   Yeah you know we on and on, oh well now...
d-----------------------------|
A-----------------------------|
F-----------------------------|
C-00-3--00-------00-3---------|x2
G-00-3--00-------00-3---------|
C-00-3--00-5-3---00-3-3-5-----|
   (incoherent screaming)...
Verse
d-----------------------------|
A-----------------------------|
F-----------------------------|
C--00-3--0--------------------|x8
G--00-3--0--------------------|
C--00-3--0-33p0-5-------------|

Chrous
d-----------------------------|
A-----------------------------|
F-----------------------------|
C-0----0--0--3----------------|
G-0----0--0--3----------------|
C-0----0--0--3----------------|
   Nobody gets out of this ya pit alive;
   Nobody, nobody gets out alive,
   Nobody gets out of this ya pit alive;
   Nobody, nobody gets out alive,


d-----------------------------|
A-----------------------------|
F-----------------------------|(this part begins with P.M. and then is
C-0000000030030043------------|gradually let off)
G-0000000030030043------------|
C-0000000030030043------------|
  Nobody gets out of this ya pit alive;
  Come follow me one and two and sixty seven and forty three and,
  Nobody gets out of this ya pit alive;
  Nobody, nobody gets out alive,
  Nobody gets out of this ya pit alive;
  Nobody, nobody gets out alive!
  Nobody gets out of this ya pit alive;
  Nobody, nobody gets out alive!




intro/pre-chorus
G2  (set whammy to 2 octaves up)
d-------------------------------------------------------|
A-------------------------------------------------------|
F-------------------------------------------------------|
C-------------------------------------------------------|
G---------12~-10~-12~-----------------12~-10~-15-12~----|
C-------------------------------------------------------|

OR(without whammy)
d---------15~-13~-15~-----------------15~-13~-19-15~----|
A-------------------------------------------------------|
F-------------------------------------------------------|
C-------------------------------------------------------|
G-------------------------------------------------------|
C-------------------------------------------------------|

Verse (same as G1)

Chorus
d-----------------------------|
A-----------------------------|
F-----87---87-87-10--------|
C-----x-x---x-x-x-x-x---------|
G-----65---65-65-8---------|
C-----------------------------|

d-----------------------------|
A-----------------------------|
F-----------------------------|(this part begins with P.M. and then is
C-0000000030030043------------|gradually let off)
G-0000000030030043------------|
C-0000000030030043------------|

this is a start...feel free to use as a guide to write a more complete tab.

email me with comments please.  thanks.
ĂŽnscrie-te la newsletter


Join the ranks ! LIKE us on Facebook