Sleep Is Wrong Bass Tab - Sleepytime Gorilla Museum






Artist : Sleepytime Gorilla Museum(http://www.sleepytimegorillamuseum.com/)
Song   : Sleep is wrong
Album  : Grand opening and closing



       ************************
       *                      *
       * Tabbed By Bassman366 *
       *                      *
                        ************************




Intro(0:09)


Riff 1(0:49)
G|------------|
D|--3-----3---|
A|22-1--22-1--|
E|------------|
B|------------|



Riff 2(1:23)
G|----------------------------|
D|----------------------------|
A|----------------------------|
E|----------------------------|
B|0-0---0-(5)-0---0-(5)--X---|
  T T   T  h  T   T  h


Break(2:45)


Riff 1(2:52)
(Break in middle)


Riff 2(3:58)


Intro(4:49)


Riff 3(5:31)
G|---------------------|--------------------|
D|---------------------|--------------------|
A|---------------------|--------------------|
E|5--5555-/-12--0-----|5-55-55-55-55-55-55-|
B|---------------------|--------------------|



Outro(6:11)
G|--------------------|
D|--------------------|
A|--------------------|
E|5-55-55-55-55-55-55-|
B|--------------------|



END



=======================================================================
h = hammeron                                             
p = pulloff                     
/ = slide                                          
x = ghost note                                      
t = tap (right hand)
~ = vibrato                     * = picked harmonic
bf = bend full                  tr = trill
rb = release bend               p.s. = pick scrape
dive = dive with bar            b = bend / step written over note
% = repeat bar                  + = natural harmonic
========================================================================






Like us on Facebook