Psychosocial Bass Tab - Slipknot






I tabbed this song in Drop A, you can try it in Drop B (BEAD) and see what sounds right 
you. The guitars are tuned down to A.

Tuning: Drop A (AEAD)

Intro (Not sure about this bit, but you can play it and see) This part is after the
riff Mick pulls:
D|---------------------------------------------------------------------------|
A|---------------------------------------------------------------------------|
E|----------6b-------------6-6-6-6-7-7-7-7-9-9-9-9-8-8-8-8-------------------|
A|0--0-0-0-----0--3h5--0-0---------------------------------------------------|

D|---------------------------------------------------------------------------|
A|---------------------------------------------------------------------------|
E|6-6-6-6-7-7-7-7-9-9-9-9-8-8-8-8--6-6-6-6-7-7-7-7-8-8-8-8-------------------|
A|---------------------------------------------------------------------------|

G|----------------------------|
D|----------------------------|
A|6666777799998888--12\-------|
E|----------------------------|

Verse:
D|-----------------|
A|-----------------|x4
E|-----------------|
A|6-0-0-5-0-0-5h6--|

Then:
D|-----------------|
A|-----------------|
E|-----------------|
A|6-5-3-0-3-5-3-2--|

The guitars do this quick riff here, I don't know if the bass goes along with it:
D|-----------------|
A|-----------------|
E|-----------------|
A|6p5-0-0-5h6------|

Chorus:
D|---------------------------------------------------------------------------|
A|---------------------------------------------------------------------------|
E|---------------------1--1-1----------------3--3-3-6--6-6-------------------|
A|6-6-6-6-6-6-6-1--1-1--------5--5-5-5-5-5-5---------------------------------|

D|---------------------------------------------------------------------------|
A|---------------------------------------------------------------------------|
E|---------------------1--1-1------------------------------------------------|
A|6-6-6-6-6-6-6-1--1-1--------5--5-5-5-5-5-5--------0--12\-------------------|

Solo (Part one):
D|-----------------|
A|-----------------|x4
E|-----------------|
A|6-0-0-5-0-0-5h6--|

D|-----------------|
A|-----------------|
E|-----------------|
A|6-5-3-0-3-5-3-2--|

Solo (Part two):
D|---------------------------------------------------------------------------|
A|---------------------------------------------------------------------------|
E|---------------------1--1-1----------------3--3-3-6--6-6-------------------|
A|6-6-6-6-6-6-6-1--1-1--------5--5-5-5-5-5-5---------------------------------|

D|---------------------------------------------------------------------------|
A|---------------------------------------------------------------------------|
E|---------------------1--1-1------------------------------------------------|
A|6-6-6-6-6-6-6-1--1-1--------5--5-5-5-5-5-5-5-5-5-5-5-5-5-------------------|

Break:
D|---------------------------------------------------------------------------|
A|---------------------------------------------------------------------------|
E|---------------------------------------------------------------------------|
A|0-0-0---0-0-0---0-0-0----0-0-0---0-0-0---0-0-0-----------------------------|

D|---------------------------------------------------------------------------|
A|---------------------------------------------------------------------------|
E|---------------------------------------------------------------------------|
A|0-0-0--0-0-0----0-0-0----0-0-0--0-0-0----0-0-0--0--12\---------------------|

**in the album version there is this bit**
D|-------------------------------------------|
A|-------------------------------------------|
E|-------------------------------------------|
A|-0--6--3--0--0-0-0-0-3--2------------------|


Final Chorus
D|---------------------------------------------------------------------------|
A|---------------------------------------------------------------------------|x3
E|---------------------1--1-1----------------3--3-3-6--6-6-------------------|
A|6-6-6-6-6-6-6-1--1-1--------5--5-5-5-5-5-5---------------------------------|

D|---------------------------------------------------------------------------|
A|---------------------------------------------------------------------------|
E|---------------------1--1-1------------------------------------------------|
A|6-6-6-6-6-6-6-1--1-1--------5--5-5-5-5-5-5-5-5-5-5-5-5-5-------------------|

Outro:
D|---------------------------------------------------------------------------|
A|---------------------------------------------------------------------------|
E|---------------------------------------------------------------------------|
A|0-0--0-0-0--0-0--0-0-0--0-0--3--2------------------------------------------|

D|---------------------------------------------------------------------------|
A|---------------------------------------------------------------------------|
E|---------------------------------------------------------------------------|
A|0-0--0-0-0--0-0--0-0-0--0-0--0--0------------------------------------------|

Ok, there's the gist of it. Rhythm you can figure out for yourself. If you're smart
to make corrections; you don't need my help, do you?

Enjoy Maggot-Bass Players.

| /  slide up
| \  slide down
| h  hammer-on
| p  pull-off
| ~  vibrato
| +  harmonic
| x  Mute note

ĂŽnscrie-te la newsletter


Like us on Facebook