I Get High On You Bass Tab - Sly And The Family Stone






Sly And The Family Stone
I Get High On You

Played FAST!

--------3--5-----------------------------------------|
-----------------------------------------------------|
---3----------3--3--3--3----3--0--1--2--3--0--1------|
--------------------------------------------------3--|

-------3--5----------------------------------5-------|
-------------------------------2--3--4--5------------|
--3--------3--3--3--3---3-----------------------3----|
-----------------------------------------------------|

-------3--5-------------------------------------------|
------------------------------------------------------|
--3----------3--3--3--3----3--0--1--2--3--0-----------|
-------------------------------------------------3----|

-------3--5--------------------------------8--10----------|
----------------------------------------------------------|
--3----------3--3--3--3-----------8--10-------------------|
---------------------------8--10-------------------5--3---|






Like us on Facebook