If You Want Me To Stay (ver2) Bass Tab - Sly And The Family Stone






Sly And The Family Stone
If You Want Me To Stay
Fresh

-------------------------------------------------------------|
--------------------66---44--------------------------33------|
--66666666---44-------------44--22222222---44-----------44---|
-----------------------------------------------66------------|

-------------------------------------------------------------|
--------------------66---44--------------------------33------|
--66666666---44-------------44--22222222---44-----------44---|
-----------------------------------------------66------------|
etc






Like us on Facebook