Cannons And Tanks Tab - Small Brown Bike




Small Brown Bike - Cannons And Tanks


By:Lance Smith (fretpunk@hotmail.com) 
This is just the intro and the preverse chord. Drop D. 
Fast strumming, listen to song for number of strums. 
e|---------------------------------------------------------------------------| 
B|---------------------------------------------------------------------------| 
G|--12---11---9---7---5---4---2---4------------------------------------------| 
D|---x----x---x---x---x---x---x---x------------------------------------------|
A|--10----9---7---5---3---2---0---2------------------------------------------|
E|---------------------------------------------------------------------------| 

pause, then. 
palm mute. 
e|---------------------------------------------------------------------------| 
B|---------------------------------------------------------------------------| 
G|---------------------------------------------------------------------------| 
D|-1--1----------------------------------------------------------------------| 
A|-1--1----------------------------------------------------------------------| 
E|-1--1----------------------------------------------------------------------| 

I'm working on figuring out the rest, if anyone knows it or can figure it out I 
would appreciate it, email me for questions. Thanx.

ĂŽnscrie-te la newsletter


Join the ranks ! LIKE us on Facebook