Some Girls Are Bigger Than Others Bass Tab - Smiths






This is the bass tab for "Some girls are bigger than others" by The Smiths.
Ive tabbed it out on a 4-string bass. Its from the live performance at the
Brixton Academy. 
  
 ---------0-------------------------------------------------------------------
 -22---22--------0122---22---00---00-------------------------------------------
 ----2------333-------2----0----0------33---33---000-----012222222-------------
 ------------------------------------0----0----0------0------------------------ 

 -0--------0-------------------------------------------------------------------
 --22---22-------0122----22----00---00-----------------------------------------
 -----2------333-------2----0-----0------33---33---000----012222222------------
 --------------------------------------0----0----0------0----------------------

 -0----------0--------------------------------------------------------------
---
---22---22----------0122---22----00---00------------------------------------
--
------2--------333-------2-----0----0-------33---33---000----012222222------
--
-----------------------------------------0-----0----0-----0------------------- 

 -0-----------0-------------------0------------------0---------------000-------
 ---22----22--------0122-----22----------0122-----22--------01-----------------
 ------2--------333-------2----------333-------2-------333---------------------
 ---------------------------------------------------------------333------------

This is the full intro, as you can see it repeats alot. From the intro you
should be able to figure out the rest of the song because its the same
pattern over and over again. Listen to the song to get the rhythm correct.
There's a 
doodoo-do-doodoo, --do-doodoo-do-doodoo.....rhythm to the song. If you pay
attention to the bassline in the song, you'll know what i'm referring to.
Have fun with it!  If there are any more bass players who are into smiths or
the jam, let's get some more basslines tabbed out!! 









ĂŽnscrie-te la newsletter


Like us on Facebook