Get Some Bass Tab - Snot






Song: Get Some
Band: Snot
Album: Get Some
Tabbed By: Kevin (Espy333@aol.com)
**************************************

Intro
G-----------|
D-3----2----|
A-----------|
E-----------| Repeat until it changes to the what's played on the verse

Verse
G----------------------------------------------|
D-3---2-----------------3--3h5h3-2-------------|
A--------0-0-3h5h3-----------------0-0-3h5h3---|
E----------------------------------------------|

Chorus
G-------------------------------|
D-------------------------------|
A-9-7-4-3-2-2-------------------|
E-------------1-1-1-1-0-0-0-1-2-|

Bridge
G----------------------|
D----------------------|
A----------------------|
E-2-5-8-0-2--2-5-0-0-2-| play it palm muted at first then when it busts out and Lynn 
 starts yelling "Come and get it" just play it normal

The ending is played the same as the first part of the chorus and the outro is the 
same as the verse






Like us on Facebook