Tecato Bass Tab - Snot






Band:  Snot
Song:  Tecato
Album: Get Some
Tabbed By:  Paul Del Mar(VOD51@aol.com)
IN MEMORY OF LYNN STRAIT

Tuning:  Drop D down a half step (Db, Ab, Db, Gb)

INTRO/VERSE
Gb|
Db|
Ab|
Db|--0-3-5-0-35-0-35--0-3-5-0-35-0-36-|

CHORUS
Gb|
Db|
Ab|
Db|--0-3-5-0-35-0-35--0-3-5-0-35-0-36-|

Gb|
Db|
Ab|-7-7-7------7-7-7------7-7-------------|
Db|-------------------------------------6-6-5-|

BRIDGE
Gb|----|-------|
Db|----|-------|
Ab|----|-5-5-|
Db|-0-|-------|

Gb|
Db|
Ab|
Db|-0-3-5--0-3-6-|

OUTRO
It is basically the chorus and then end with:
Gb|
Db|
Ab|
Db|--6-6-6--|







Like us on Facebook