Shut Your Eyes Bass Tab - Snow Patrol




Snow Patrol  Shut Your Eyes, from album Eyes Open

Standard Tuning EADG

Intro (Guitar X4)

Verse
G|---------------------|
D|---------------------| X12
A|-X-6-666-XX-6-4-66-4-|
E|---------------------|

Chorus
G|-----------------------------------------------------------------------|
D|-----------------------------------------------------------------------| 
A|-22-222-2----------44-444-4-22-222-222-222-2----------44-444-444-44444-|
E|----------44-444-4---------------------------44-444-4------------------|

Verse
G|---------------------|
D|---------------------| X12
A|-X-6-666-XX-6-4-66-4-|
E|---------------------|

Chorus
G|-----------------------------------------------------------------------|
D|-----------------------------------------------------------------------| 
A|-22-222-2----------44-444-4-22-222-222-222-2----------44-444-444-44444-|
E|----------44-444-4---------------------------44-444-4------------------|

Rest

Outro
G|---------------------|
D|---------------------| X8
A|-X-6-666-XX-6-4-66-4-|
E|---------------------|

Thats what I think it goes like.
Please rate it and email me if you have any problems, adam.vaughan@hotmail.co.uk

Adam Vaughan
ĂŽnscrie-te la newsletter


Join the ranks ! LIKE us on Facebook