Black 7 (ver2) Tab - Soil




Thanks for jay for laying down the tab, i just transfered it to the tuning
that soil play in.
drop C tuning (CGCFAD)

 
INTRO-lightly strummed
|-----------------------------------------------------------
|-----------------------------------------------------------
|-8-8-8-8--7-7-7-7--4-4-4-4--5-5-5-5------------------------
|-8-8-8-8--7-7-7-7--4-4-4-4--5-5-5-5------------------------
|-6-6-6-6--5-5-5-5--2-2-2-2--3-3-3-3------------------------
|-----------------------------------------------------------


CHORUS-i think this is palyed with a keyboard or a second guitar with
sound effects 
peddle?

|-----------------------------------------------------------
|-----------------------------------------------------------
|-----------------------------------------------------------
|-10------13-12---13-10----13-12-13-15--13-12---------------
|-10------13-12---13-10----13-12-13-15--13-12---------------
|-10------13-12---13-10----13-12-13-15--13-12---------------

ĂŽnscrie-te la newsletter


Join the ranks ! LIKE us on Facebook