Black 7 Intro (ver2) Tab - Soil




So far this is what I've gotten. Im too lazy to drop C everything, so I'll just do
drop D. I think the intro sounds correct, listen to the song to keep strum timing.
I'm still working on getting the rest of the song, so hopefully I'll have the rest
soon.


   Lightly strum (little distortion)
E|-----------------------------------------------------------|
B|-----------------------------------------------------------|
G|-----------------------------------------------------------|
D|--11-11-11-11---10-10-10---7-7---8---8-8-8-----------------|
A|--11-11-11-11---10-10-10---7-7---8---8-8-8-----------------|
D|--11-11-11-11---10-10-10---7-7---8---8-8-8-----------------|  x2

   (Distorted)
E|-----------------------------------------------------------|
B|-----------------------------------------------------------|
G|-----------------------------------------------------------|
D|--11-11-11----10--10/-7-7---8---8-8-8----------------------|
A|--11-11-11----10--10/-7-7---8---8-8-8----------------------|
D|--11-11-11----10--10/-7-7---8---8-8-8----------------------|

ĂŽnscrie-te la newsletter


Join the ranks ! LIKE us on Facebook