Pride Tab - Soil




-------------------------------------------------------------------------------
     SONG NAME - Band Name
-------------------------------------------------------------------------------
Tabbed by:carl
Email:drago0686@aol.com

Tuning:Drop D flat

intro/verse(the verse varies through out the song listen to the rythme)

e|---------------------------------------------------------------------------
B|---------------------------------------------------------------------------
G|---------------------------------------------------------------------------
D|-22--00-33-22--00-33-22--00-33-22------------------------------------------
A|-22--00-33-22--00-33-22--00-33-22------------------------------------------
D|-22--00-33-22--00-33-22--00-33-22------------------------------------------
Chours
e|---------------------------------------------------------------------------
B|---------------------------------------------------------------------------
G|---------------------------------------------------------------------------
D|-44--2222--5555--4444------------------------------------------------------
A|-44--2222--5555--4444------------------------------------------------------
E|-22--2222--5555--4444------------------------------------------------------
or
e|---------------------------------------------------------------------------
B|---------------------------------------------------------------------------
G|---------------------------------------------------------------------------
D|-99--2222--5555--4444------------------------------------------------------
A|-99--2222--5555--4444------------------------------------------------------
E|-99--2222--5555--4444------------------------------------------------------

Solo
e|--15-14-17-12--15-14-10-12-------------------------------------------------
B|---------------------------------------------------------------------------
G|---------------------------------------------------------------------------
D|---------------------------------------------------------------------------
A|---------------------------------------------------------------------------
E|---------------------------------------------------------------------------
goes ito
e|---------------------------------------------------------------------------
B|---------------------------------------------------------------------------
G|--999--11-12--14141414-----777--9--11-12121212-----------------------------
D|--xxx--x--x---x-x-x-x------xxx--x--x--x-x-x-x------------------------------
A|--777--9--10--12121212-----555--7--9--10101010-----------------------------
E|---------------------------------------------------------------------------

End Chorus
e|---------------------------------------------------------------------------
B|---------------------------------------------------------------------------
G|---------------------------------------------------------------------------
D|--2222-0000--9999--10101010------------------------------------------------
A|--2222-0000--9999--10101010------------------------------------------------
E|--2222-0000--9999--10101010------------------------------------------------

Order:
verse
chorus
verse
chorus
solo
verse
chorus
end chorus

Well hope you enjoy email me at drago0686@aol.com if there are any problems.

ĂŽnscrie-te la newsletter


Join the ranks ! LIKE us on Facebook