Wide Open Bass Tab - Soil




Soil - Wide Open
Tabbed By: Jamie Withers
EMail: jwmanson@hotmail.com
Album: Scars


Intro
G-------------------|
D-------------------|
A-------------------|  
E--0-5-3-0-3-0-3-5--| 

Pre-Verse
G-------------------|---------------|
D-------------------|---------------|
A-------------------|---------------| First bit x3
E--0-5-3-0-3-0-3-5--|--5-5-5---555--|

Verse
G---------------------|
D---------------------|
A------5-2-3----------|
E--0-0-------2-2-2-0--|

Chorus
G--------------|
D--------------|
A--------------|
E-5-5-5---5-5--|

Bridge
G--------------|-------|
D--------------|-------|
A--------------|-------|
E--5-5-5-8-7-6-|-5-5-5-|

Thats It
Enjoy!

ĂŽnscrie-te la newsletter


Join the ranks ! LIKE us on Facebook