Wide Open Tab - Soil




Yeah. It's me again. Bringing you some new tabs from a great new band SOiL. 
They're a great metal band to start the 21st Century. SOiL kicks a*s!

SOiL/Wide Open/Scars/J Records/2001
Tabbed By Leonard

Intro - Adam uses an effect on this, it might be a harmonizer.
e-------------------|
B-------------------|
G-------------------|
D-------------------|
A-------------------|  x4 
E--0-5-3-0-3-0-3-5--| 

Pre-Verse
e-------------------|---------------|
B----------3x-------|---------------|
G-------------------|---------------|
D--0-5-3-0-3-0-3-5--|--5-5-5---555--|
A--0-5-3-0-3-0-3-5--|--5-5-5---555--|
E--0-5-3-0-3-0-3-5--|--5-5-5---555--|

Verse
e---------------------|
B---------------------|
G---------------------|
D---------------------|
A------5-2-3----------|
E--0-0-------2-2-2-0--|

Chorus
e--------------|-------|
B--------------|-------|
G--------------|-------|
D-5-5-5---5-5--|--7b~~-|
A-5-5-5---5-5--|-------|
E-5-5-5---5-5--|-------|

"Nothing can save my world....."
e--------------|-------|
B-------x4-----|-fast--|
G--------------|-------|
D--5-5-5-8-7-6-|-5-5-5-|
A--5-5-5-8-7-6-|-5-5-5-|
E--5-5-5-8-7-6-|-5-5-5-|

That's about it. This is the song order.
Intro
Pre-Verse
Verse
Chorus
"Nothing..."
Pre-Verse
Verse
Chorus
"Nothing..."
Pre-Verse
Verse(stops at "taste of pain...")
Intro
Chorus
"Nothing..."
Chorus
"Nothing..."

ĂŽnscrie-te la newsletter


Join the ranks ! LIKE us on Facebook