Partisan Intro (ver2) Tab - Sponge Cola






Partisan
Sponge Cola
Tabbed by: Mikee Silvestre

E|-----------------------------------|
B|-------------13-----13-------------|
G|-9--10---12------12----------------|
D|-----------------------------------|
A|-----------------------------------|
E|-----------------------------------|

E|-----------------------------------|
B|----13----13-------13----13--------|
G|-10----10----10-12----12----12-10--|
D|-----------------------------------|
A|-----------------------------------|
E|-----------------------------------|

E|-----------------------------------|
B|----13----13-------13----13--------|
G|-10----10----10-12----12----12-10--|
D|-----------------------------------|
A|-----------------------------------|
E|-----------------------------------|

E|-----------------------------------|
B|----13----13-------13----13--------|
G|-10----10----10-12----12----12-10--|
D|-----------------------------------|
A|-----------------------------------|
E|-----------------------------------|

ĂŽnscrie-te la newsletter


Like us on Facebook