Tuloy Pa Rin Tab - Sponge Cola






TULOY PA RIN by SPONGECOLA yeeahhh...

Song Name: TULOY PA RIN
Band Name: SPONGECOLA
Track Description: Pedro Penduko OST 
                   (mabuhay si pedro pendukot...)
Tab by   : Keno Ventolero, UP Diliman, BS Math rockz...
text me  : 09176143864, call me: 9065016

MENSAHE SA LAHAT:
Guys, I think this is good enough... just bear with
the lapses... it may not be perfect but it is close
enough i think... just leave a comment if you have
any suggestions... rate my tab so i may know if it
really is a good tab... ^_^

Tuning: HALF-STEP DOWN! HALF-STEP DOWN! HALF-STEP DOWN!
        [eb Bb Gb Db Ab Eb] or [eb Bb F# C# G# Eb] pareho lang yun...

*bakit half-step down? kasi yun tono ng gitara ko
nung i-tab out ko yung kanta... ^_^ and Spongecola
really tune thier guitars like that... ebBbGbDbAbEb yahoo...

Notes:
        *walang magrereklamo na mataas ang mga notes dito
         it is stated na HALF STEP DOWN AND TUNING!

        *if i have the time, i'd just put how it is
         played kapag standard tuning...

        *hindi to arranged according sa timing...

        *i based my tab sa video na nakita ko sa youtube
         dun ko lang tinipa ehh... di ako magdownload nung kanta ^_^

        *hello sa mga friends ko: ernst, reynard, neil, janice
         hazelle, zeah, robert (hahaha!) hello din mahal kong Blessie...

Let's Begin!

[INTRO]:

Guitar 2:
eb|---------------------------|
Bb|---------------------------|
Gb|--8-8---8-8---8-8---8^9r8--|
Db|--x-x---x-x---x-x----------|
Ab|--6-6---6-6---6-6----------|
Eb|---------------------------|
Guitar 1:
eb|---------------------------|
Bb|---------------------------|
Gb|---------------------------|
Db|--6-6---6-6---6-6---6-6-4--|
Ab|--6-6---6-6---6-6---6-6-4--|
Eb|--4-4---4-4---4-4---4-4-2--|
(cont'd)
Guitar 2:
eb|-----------------------------|
Bb|--------------------9-7-9-9--|
Gb|--8-8---8-8---8-8------------|
Db|--x-x---x-x---x-x------------|
Ab|--6-6---6-6---6-6------------|
Eb|-----------------------------|
Guitar 1:
eb|---------------------------|
Bb|---------------------------|
Gb|---------------------------|
Db|--6-6---6-6---6-6---6-6-4--|
Ab|--6-6---6-6---6-6---6-6-4--|
Eb|--4-4---4-4---4-4---4-4-2--|

then,
Guitar 2:
eb|---------------------------|
Bb|---------------------------|
Gb|--8-8-7-7-8-8-9-9----------|
Db|--x-x-x-x-x-x-x-x----------|
Ab|--6-6-5-5-6-6-7-7----------|
Eb|---------------------------|2x
Guitar 1:
eb|------------------------------------|
Bb|------------------------------------|
Gb|------------------------------------|
Db|--6~~-------------------------------|
Ab|--6~~--(just let ring --------------|
Eb|--4~~---through 2 measures of gtr2)-|

then,
Guitar 2:
eb|-------------------------------------|
Bb|-------------------------------------|
Gb|--8-8-8-8-8-8-8-8--7-7-7-7-7-7-7-7---|
Db|--x-x-x-x-x-x-x-x--x-x-x-x-x-x-x-x---|
Ab|--6-6-6-6-6-6-6-6--5-5-5-5-5-5-5-5---|
Eb|-------------------------------------|

then,
[BREAKDOWN]:
Guitar 2:
eb|------------------------------------------------------------|
Bb|------------------------------------------------------------|
Gb|--------------------------9-9-9-9-9-9-9-98-8-8-8-8-8-8-8---|
Db|--6~~--/8~~--/9~~-/16~~---x-x-x-x-x-x-x-x-x-x-x-x-x-x-x-x---|
Ab|--x-----x-----x-----x-----7-7-7-7-7-7-7-76-6-6-6-6-6-6-6---|
Eb|--4~~--/6~~--/7~~-/14~~-------------------------------------|
Guitar 1:
eb|-------------------------------------------------------------|
Bb|-------------------------------------------------------------|
Gb|--------------------------9-9-9-9-9-9-9-9/1212121212121212---|
Db|--6-6---6-6---6-6---6-6---x-x-x-x-x-x-x-x--x-x-x-x-x-x-x-x---|
Ab|--6-6---6-6---6-6---6-6---7-7-7-7-7-7-7-7/1010101010101010---|
Eb|--4-4---4-4---4-4---4-4--------------------------------------|


[VERSE 1]:
Guitar 2:
eb|----------------------------------------------------------------|
Bb|----------------------------------------------------------------|
Gb|--1313------------------------------------88888888-77777777-----|
Db|---x-x------------------------------------xxxxxxxx-xxxxxxxx-----|
Ab|--1111------------------------------------66666666-55555555-----|
Eb|----------------------------------------------------------------|
Guitar 1:
eb|----------------------------------------------------------------|
Bb|----------------------------------------------------------------|
Gb|----------------------------------------------------------------|
Db|--6-6-----------------------------------------------------------|
Ab|--6-6---6-6-6-6-6-6-6-6-6-6-6-6-6-6-6-6-(continuos palm muting--|
Eb|--4-4---4-4-4-4-4-4-4-4-4-4-4-4-4-4-4-4--with G# chord here...)-|
PM        . . . . . . . . . . . . . . . .
         "eto nang panahon...             atin nang tawirin..."
(cont'd)
Guitar 2:
eb|----------------------------------------------------------------|
Bb|----------------------------------------------------------------|
Gb|--1313-----------------------------------88884444/88884444----|
Db|---x-x-------------^6--------------------xxxx-xxxx-xxxx-xxxx----|
Ab|--1111---------4-6----------------4-6----66662222/66662222----|
Eb|---------4-6-7--------------4-6-7-------------------------------|
Guitar 1:
eb|----------------------------------------------------------------|
Bb|----------------------------------------------------------------|
Gb|----------------------------------------------------------------|
Db|--6-6-----------------------------------------------------------|
Ab|--6-6---6-6-6-6-6-6-6-6-6-6-6-6-6-6-6-6-(continuos palm muting--|
Eb|--4-4---4-4-4-4-4-4-4-4-4-4-4-4-4-4-4-4--with G# chord here...)-|
PM        . . . . . . . . . . . . . . . .
         "at walang lilingon...
(cont'd)
Guitar 2: 
eb|-----------------------------------------------------------------|
Bb|-----------------------------------------------------------------|
Gb|-------------------------------8-8-8-8-8-8-8-8--7-7-7-7-7-7-7-7--|
Db|-------------------------------x-x-x-x-x-x-x-x--x-x-x-x-x-x-x-x--|
Ab|-----------4h6--------4h6h7----6-6-6-6-6-6-6-6--5-5-5-5-5-5-5-5--|
Eb|-------4-4-----7--4-4--------------------------------------------|
Guitar 1:
eb|-------------------------------------------------------------|
Bb|-------------------------------------------------------------|
Gb|--------------------------------------------8~~-------8~-----|
Db|--6-6--6-6-6-6-6-6-6-6-6-6-6-6-6-6-6-6------9~~-------9~-----|
Ab|--6-6--6-6-6-6-6-6-6-6-6-6-6-6-6-6-6-6-----------------------|
Eb|--4-4--4-4-4-4-4-4-4-4-4-4-4-4-4-4-4-4--7~-------6~----------|
(cont'd)
Guitar 2:
eb|-----------------------------------------------------|
Bb|-----------------------------------------------------|
Gb|-----------------------------------8-8-8-----7-7-7---|
Db|-----------------------------------x-x-x-----x-x-x---|
Ab|--------4h6p4------------4h6h7-----6-6-6-----5-5-5---|
Eb|---4-4--------7--4-4-(2)--------7---------6----------|
Guitar 1: *tinatamad na ako maglagay ng spacing... ^_^
eb|------------------------------------------|
Bb|------------------------------------------|
Gb|------------------------------------------|
Db|---6666666666666666--99999999--88888888---|
Ab|---6666666666666666--99999999--99999999---|
Eb|---4444444444444444--77777777--66666666---|

then,
[BREAKDOWN]:
Guitar 2:
eb|---------------------------|
Bb|---------------------------|
Gb|--8888888888888888/1311---|
Db|--xxxxxxxxxxxxxxxx--x--x---|
Ab|--6666666666666666/11-9---|
Eb|---------------------------|
Guitar 1:
eb|---------------------|
Bb|---------------------|
Gb|--8888888888888888---|
Db|--8888888888888888---|
Ab|--6666666666666666---|
Eb|---------------------|


[CHORUS]:

Silence muna: "bawat tumbay muling babangon..."

Guitar 2:
eb|------------------------|
Bb|-----8^9^9^9^9^9^9------|
Gb|------------------------|
Db|------------------------|
Ab|------------------------|
Eb|------------------------|
          "pilit na ...


Guitar 2: *low volume*
eb|------------------------------------|
Bb|------------------------------------|
Gb|--9-9-9-9-9-9-9-9-1111111111111111--|
Db|--x-x-x-x-x-x-x-x--x-x-x-x-x-x-x-x--|
Ab|--7-7-7-7-7-7-7-7--9-9-9-9-9-9-9-9--|
Eb|------------------------------------|
Guitar 1:
eb|------------------------------------|
Bb|------------------------------------|
Gb|------------------------------------|
Db|--2-2-2-2-2-2-2-2--4-4-4-4-4-4-4-4--|
Ab|--2-2-2-2-2-2-2-2--4-4-4-4-4-4-4-4--|
Eb|--0-0-0-0-0-0-0-0--2-2-2-2-2-2-2-2--|

then, 
Both Guitars:
eb|------------------------------------|
Bb|------------------------------------|
Gb|--4-4-4-4-4-4-4-4-------------------|
Db|--4-4-4-4-4-4-4-4--6-6-6-6-6-6-6-6--|
Ab|--2-2-2-2-2-2-2-2--6-6-6-6-6-6-6-6--|
Eb|-------------------4-4-4-4-4-4-4-4--|
(cont'd)
eb|------------------------------------|
Bb|------------------------------------|
Gb|-------------------8-8-8-8-8-8-8-8--|
Db|--2-2-2-2-2-2-2-2--8-8-8-8-8-8-8-8--|
Ab|--2-2-2-2-2-2-2-2--6-6-6-6-6-6-6-6--|
Eb|--0-0-0-0-0-0-0-0-------------------|


[INTERLUDE]:
Guitar 2:
eb|------------------------------------------------|
Bb|------------------------------------------------|
Gb|--88-88-88-88--8-6-8----88-88-88-88-/13-11-13---|
Db|--xx-xx-xx-xx--x-x-x----xx-xx-xx-xx---x--x--x---|
Ab|--66-66-66-66--6-4-6----66-66-66-66-/11--9-11---|
Eb|------------------------------------------------|
Guitar 1:
eb|--------------------------------------|
Bb|--------------------------------------|
Gb|--------------------------------------|
Db|--66-66-66-66--66--4----66-66-66-66---|
Ab|--66-66-66-66--66--4----66-66-66-66---|
Eb|--44-44-44-44--44--2----44-44-44-44---|


[VERSE 2]:
Guitar 1:
eb|------------------------------------|
Bb|------------------------------------|
Gb|------------------------------------|
Db|--6-6----6-6-6---6-6-6---6-6--4-4--|
Ab|--6-6----6-6-6---6-6-6---6-6--4-4--|
Eb|--4-4----4-4-4---4-4-4---4-4--2-2--|3x po ito
(cont'd)
eb|------------------------|
Bb|------------------------|
Gb|------------------------|
Db|--9~~---8~~-----4------|
Ab|--9~~---9~~-----4------|
Eb|--7~~---6~~-----2------|

[BREAKDOWN]:
Guitar 2:
eb|---------------------------|
Bb|---------------------------|
Gb|--8888888888888888/1311---|
Db|--xxxxxxxxxxxxxxxx--x--x---|
Ab|--6666666666666666/11-9---|
Eb|---------------------------|
Guitar 1:
eb|---------------------|
Bb|---------------------|
Gb|--8888888888888888---|
Db|--8888888888888888---|
Ab|--6666666666666666---|
Eb|---------------------|

[repeat chorus]

Adlib:
Guitar 2:
eb|-----------------------------------|
Bb|-------------------------74---7---|
Gb|-----------------------------5-----|
Db|--6-6---6-6---6-6---6-6------------|
Ab|--6-6---6-6---6-6---6-6------------|
Eb|--4-4---4-4---4-4---4-4------------|
Guitar 1:
eb|-----------------------------------|
Bb|-------------------------42---4---|
Gb|-----------------------------4-----|
Db|--6-6---6-6---6-6---6-6------------|
Ab|--6-6---6-6---6-6---6-6------------|
Eb|--4-4---4-4---4-4---4-4------------|

then,
Both Guitars:
eb|---------------------4p2h4-4~---|
Bb|--------------------------------|
Gb|--------------------------------|
Db|--6-6--6-6--6-6--6-6------------|
Ab|--6-6--6-6--6-6--6-6------------|
Eb|--4-4--4-4--4-4--4-4------------|

then,
Guitar 1:
eb|-------------------------------------|
Bb|-------------------------------------|
Gb|-------------------4-4-4-4-----------|
Db|--6-6-6-6-6-6-6-6--4-4-4-4--4-4-4-4--|
Ab|--6-6-6-6-6-6-6-6--2-2-2-2--4-4-4-4--|
Eb|--4-4-4-4-4-4-4-4-----------2-2-2-2--|
(cont'd)
eb|------------------------------------|
Bb|------------------------------------|
Gb|------------------------------------|
Db|--2-2-2-2-2-2-2-2--4-4-4-4-4-4-4-4--|
Ab|--2-2-2-2-2-2-2-2--4-4-4-4-4-4-4-4--|
Eb|--0-0-0-0-0-0-0-0--2-2-2-2-2-2-2-2--|
Guitar 2: *hindi po ito 100% sure... tremolo picking...
eb|--11-11-11-11-11-11-11--------------------------------------------------|
Bb|--9--9--9--9--9--9--9--12-12-12-12-12-12-12-12--9--9--9--9--9--9--9--9--|
Gb|-----------------------11-11-11-11-11-11-11-11-11-11-11-11-11-11-11-11--|
Db|------------------------------------------------------------------------|
Ab|------------------------------------------------------------------------|
Eb|------------------------------------------------------------------------|
(cont'd)
eb|----------------------------|
Bb|--12-12-12-12-12-12-12------|
Gb|--11-11-11-11-11-11-11------|
Db|----------------------------|
Ab|----------------------------|
Eb|----------------------------|

Final Chorus:
Guitar 1:
eb|------------------------------------------------------------------------|
Bb|------------------------------------------------------------------------|
Gb|--4-4-4-4-4-4-4-4-------------------------------------------------------|
Db|--4-4-4-4-4-4-4-4--6-6-6-6-6-6-6-6--2-2-2-2-2-2-2-2--4-4-4-4-4-4-4-4----|
Ab|--2-2-2-2-2-2-2-2--6-6-6-6-6-6-6-6--2-2-2-2-2-2-2-2--4-4-4-4-4-4-4-4----|
Eb|-------------------4-4-4-4-4-4-4-4--0-0-0-0-0-0-0-0--2-2-2-2-2-2-2-2----|4x

Guitar 2: *tremolo picking; do on first 2x of guitar 1...
eb|------------------------------------------------------------------------|
Bb|--1212121212121212------------------1212121212121212-/--1414141414------|
Gb|------------------------------------------------------------------------|
Db|------------------------------------------------------------------------|
Ab|------------------------------------------------------------------------|
Eb|------------------------------------------------------------------------|
(cont'd) *eleven yan ah...
eb|--1111111111111111-1414141414141414-1111111111111111-9-9-9-9-9-9-9-9----|
Bb|------------------------------------------------------------------------|
Gb|------------------------------------------------------------------------|
Db|------------------------------------------------------------------------|
Ab|------------------------------------------------------------------------|
Eb|------------------------------------------------------------------------|

Outro:
Both Guitars:
eb|--------------------------|
Bb|--------------------------|
Gb|--------------------------|
Db|--6-6---6-6---6-6---6-6---|
Ab|--6-6---6-6---6-6---6-6---|
Eb|--4-4---4-4---4-4---4-4---|

that's about it! 
please rate... comment on suggestions... pinoy bands rock!
mahal po kita blessie... 


ĂŽnscrie-te la newsletter


Like us on Facebook