Una Intro Tab - Sponge Cola






Mataas pala ng half-note yung dati!
Eto tama na to! Pati yung chords!

e-----6---6-------6---6-------6-------6---6-------6---6-------6---|
B---7---7---7---7---7---7---7---7---7---7---7---7---7---7---7---7-|
G-8-----------8-----------8-------6-----------6-----------6-------|
D-----------------------------------------------------------------|
A-----------------------------------------------------------------|
E-----------------------------------------------------------------|

e-----6---6---6---7---7---9---9-------6---6-------7p6-----------|
B---7---7---7---7---7---7---7---7---7---7---7---7-----7---7-----|
G-8-------------------------------8-----------8---------8-------|
D---------------------------------------------------------------|
A---------------------------------------------------------------|
E---------------------------------------------------------------|

tapos enter ng
  BM7             F#M7            BM7             F#M7     
e-----6---6---6-------6---6---6-------6---7---9-------6---6---6---|
B---7---7---7---7---7---7---7---7---7---7---7---7---7---7---7---7-|
G-8---------------6---------------8---------------8---------------|
D-----------------------------------------------------------------|
A-----------------------------------------------------------------|
E-----------------------------------------------------------------|

Chord= / E A D G B e /
BM7  = / x 2 4 3 4 x /
F#M7 = / 2 x 3 3 2 x /

ĂŽnscrie-te la newsletter


Like us on Facebook